ISO-10303-21;
HEADER;
FILE_DESCRIPTION (( 'STEP AP203' ),
    '1' );
FILE_NAME ('QB-CTZHWP-12.7-633-M.STEP',
    '2020-12-24T01:34:55',
    ( '' ),
    ( '' ),
    'SwSTEP 2.0',
    'SolidWorks 2020',
    '' );
FILE_SCHEMA (( 'CONFIG_CONTROL_DESIGN' ));
ENDSEC;

DATA;
#1 = CARTESIAN_POINT ( 'NONE',  ( -1.614212418857619014, 0.000000000000000000, 6.349999999999999645 ) ) ;
#2 = ORIENTED_EDGE ( 'NONE', *, *, #62, .F. ) ;
#3 = CARTESIAN_POINT ( 'NONE',  ( 1.500000000000000888, 0.000000000000000000, 0.000000000000000000 ) ) ;
#4 = EDGE_CURVE ( 'NONE', #159, #177, #57, .T. ) ;
#5 = ORIENTED_EDGE ( 'NONE', *, *, #154, .T. ) ;
#6 = CARTESIAN_POINT ( 'NONE',  ( -3.000000000000000000, 0.000000000000000000, 12.69999999999999929 ) ) ;
#7 = AXIS2_PLACEMENT_3D ( 'NONE', #311, #78, #179 ) ;
#8 = DIRECTION ( 'NONE',  ( 0.000000000000000000, 0.000000000000000000, 1.000000000000000000 ) ) ;
#9 = ADVANCED_FACE ( 'NONE', ( #94 ), #77, .F. ) ;
#10 = DIRECTION ( 'NONE',  ( -1.000000000000000000, -0.000000000000000000, -0.000000000000000000 ) ) ;
#11 = CIRCLE ( 'NONE', #288, 12.69999999999999929 ) ;
#12 = APPROVAL_DATE_TIME ( #99, #24 ) ;
#13 = CC_DESIGN_PERSON_AND_ORGANIZATION_ASSIGNMENT ( #122, #224, ( #161 ) ) ;
#14 = DIRECTION ( 'NONE',  ( 0.000000000000000000, 0.000000000000000000, 1.000000000000000000 ) ) ;
#15 = COORDINATED_UNIVERSAL_TIME_OFFSET ( 8, 0, .AHEAD. ) ;
#16 = DIRECTION ( 'NONE',  ( 0.000000000000000000, 0.000000000000000000, 1.000000000000000000 ) ) ;
#17 = EDGE_LOOP ( 'NONE', ( #282, #227, #70, #59 ) ) ;
#18 = APPLICATION_PROTOCOL_DEFINITION ( 'international standard', 'config_control_design', 1994, #306 ) ;
#19 = PLANE ( 'NONE',  #269 ) ;
#20 = CC_DESIGN_PERSON_AND_ORGANIZATION_ASSIGNMENT ( #301, #69, ( #267 ) ) ;
#21 = VERTEX_POINT ( 'NONE', #46 ) ;
#22 = FACE_OUTER_BOUND ( 'NONE', #225, .T. ) ;
#23 = AXIS2_PLACEMENT_3D ( 'NONE', #207, #105, #334 ) ;
#24 = APPROVAL ( #283, 'UNSPECIFIED' ) ;
#25 = DIRECTION ( 'NONE',  ( -1.000000000000000000, -0.000000000000000000, -0.000000000000000000 ) ) ;
#26 = PLANE ( 'NONE',  #29 ) ;
#27 = ORIENTED_EDGE ( 'NONE', *, *, #71, .F. ) ;
#28 = AXIS2_PLACEMENT_3D ( 'NONE', #332, #304, #198 ) ;
#29 = AXIS2_PLACEMENT_3D ( 'NONE', #262, #158, #240 ) ;
#30 = VERTEX_POINT ( 'NONE', #257 ) ;
#31 = CARTESIAN_POINT ( 'NONE',  ( -1.614212418857619014, 0.000000000000000000, 6.349999999999999645 ) ) ;
#32 = EDGE_CURVE ( 'NONE', #245, #159, #101, .T. ) ;
#33 = CIRCLE ( 'NONE', #292, 6.349999999999999645 ) ;
#34 = DIRECTION ( 'NONE',  ( -1.000000000000000000, -0.000000000000000000, -0.000000000000000000 ) ) ;
#35 = DIRECTION ( 'NONE',  ( -1.000000000000000000, -0.000000000000000000, -0.000000000000000000 ) ) ;
#36 = PERSON_AND_ORGANIZATION_ROLE ( 'classification_officer' ) ;
#37 = CC_DESIGN_SECURITY_CLASSIFICATION ( #89, ( #161 ) ) ;
#38 = EDGE_LOOP ( 'NONE', ( #185, #302 ) ) ;
#39 = ADVANCED_FACE ( 'NONE', ( #128 ), #205, .T. ) ;
#40 = CARTESIAN_POINT ( 'NONE',  ( -1.500000000000000444, 0.000000000000000000, 0.000000000000000000 ) ) ;
#41 = MANIFOLD_SOLID_BREP ( 'Ðý×', #242 ) ;
#42 = CIRCLE ( 'NONE', #268, 6.349999999999999645 ) ;
#43 = AXIS2_PLACEMENT_3D ( 'NONE', #3, #34, #219 ) ;
#44 = ORIENTED_EDGE ( 'NONE', *, *, #331, .T. ) ;
#45 = DATE_AND_TIME ( #252, #67 ) ;
#46 = CARTESIAN_POINT ( 'NONE',  ( 1.500000000000000888, 0.000000000000000000, 6.349999999999999645 ) ) ;
#47 = PRODUCT_DEFINITION ( 'UNKNOWN', '', #161, #209 ) ;
#48 = DIRECTION ( 'NONE',  ( -1.000000000000000000, -0.000000000000000000, -0.000000000000000000 ) ) ;
#49 = CARTESIAN_POINT ( 'NONE',  ( -3.000000000000000000, 0.000000000000000000, 0.000000000000000000 ) ) ;
#50 = CC_DESIGN_PERSON_AND_ORGANIZATION_ASSIGNMENT ( #232, #129, ( #47 ) ) ;
#51 = CARTESIAN_POINT ( 'NONE',  ( -1.500000000000000444, 7.776507174585692163E-16, -6.349999999999999645 ) ) ;
#52 = EDGE_LOOP ( 'NONE', ( #199, #55, #83, #180 ) ) ;
#53 = AXIS2_PLACEMENT_3D ( 'NONE', #287, #237, #107 ) ;
#54 = DIRECTION ( 'NONE',  ( -1.000000000000000000, -0.000000000000000000, -0.000000000000000000 ) ) ;
#55 = ORIENTED_EDGE ( 'NONE', *, *, #214, .T. ) ;
#56 = VERTEX_POINT ( 'NONE', #123 ) ;
#57 = CIRCLE ( 'NONE', #174, 12.69999999999999929 ) ;
#58 = VECTOR ( 'NONE', #25, 1000.000000000000000 ) ;
#59 = ORIENTED_EDGE ( 'NONE', *, *, #86, .F. ) ;
#60 = DIRECTION ( 'NONE',  ( 0.000000000000000000, 0.000000000000000000, 1.000000000000000000 ) ) ;
#61 = DIRECTION ( 'NONE',  ( 1.000000000000000000, 0.000000000000000000, 0.000000000000000000 ) ) ;
#62 = EDGE_CURVE ( 'NONE', #290, #258, #42, .T. ) ;
#63 = DIRECTION ( 'NONE',  ( -1.000000000000000000, -0.000000000000000000, -0.000000000000000000 ) ) ;
#64 = CARTESIAN_POINT ( 'NONE',  ( -1.500000000000000444, 0.000000000000000000, 0.000000000000000000 ) ) ;
#65 = ADVANCED_FACE ( 'NONE', ( #330, #151 ), #19, .F. ) ;
#66 = DATE_AND_TIME ( #201, #309 ) ;
#67 = LOCAL_TIME ( 9, 34, 55.00000000000000000, #172 ) ;
#68 = CARTESIAN_POINT ( 'NONE',  ( -1.614212418857619014, 0.000000000000000000, 0.000000000000000000 ) ) ;
#69 = PERSON_AND_ORGANIZATION_ROLE ( 'design_owner' ) ;
#70 = ORIENTED_EDGE ( 'NONE', *, *, #32, .T. ) ;
#71 = EDGE_CURVE ( 'NONE', #108, #258, #176, .T. ) ;
#72 = ORIENTED_EDGE ( 'NONE', *, *, #265, .F. ) ;
#73 =( NAMED_UNIT ( * ) PLANE_ANGLE_UNIT ( ) SI_UNIT ( $, .RADIAN. ) );
#74 = AXIS2_PLACEMENT_3D ( 'NONE', #68, #253, #14 ) ;
#75 = ORIENTED_EDGE ( 'NONE', *, *, #169, .T. ) ;
#76 = AXIS2_PLACEMENT_3D ( 'NONE', #326, #95, #170 ) ;
#77 = PLANE ( 'NONE',  #28 ) ;
#78 = DIRECTION ( 'NONE',  ( -1.000000000000000000, -0.000000000000000000, -0.000000000000000000 ) ) ;
#79 = ORIENTED_EDGE ( 'NONE', *, *, #169, .F. ) ;
#80 = AXIS2_PLACEMENT_3D ( 'NONE', #217, #315, #319 ) ;
#81 = EDGE_LOOP ( 'NONE', ( #5, #187 ) ) ;
#82 = ADVANCED_FACE ( 'NONE', ( #200, #203 ), #308, .F. ) ;
#83 = ORIENTED_EDGE ( 'NONE', *, *, #4, .F. ) ;
#84 = LINE ( 'NONE', #192, #333 ) ;
#85 = CIRCLE ( 'NONE', #96, 6.349999999999999645 ) ;
#86 = EDGE_CURVE ( 'NONE', #177, #159, #157, .T. ) ;
#87 = DIRECTION ( 'NONE',  ( 0.000000000000000000, 0.000000000000000000, -1.000000000000000000 ) ) ;
#88 = DIRECTION ( 'NONE',  ( 0.000000000000000000, 0.000000000000000000, 1.000000000000000000 ) ) ;
#89 = SECURITY_CLASSIFICATION ( '', '', #124 ) ;
#90 = PERSON_AND_ORGANIZATION ( #102, #127 ) ;
#91 = CARTESIAN_POINT ( 'NONE',  ( -3.000000000000000000, 1.555301434917138433E-15, -12.69999999999999929 ) ) ;
#92 = CALENDAR_DATE ( 2020, 24, 12 ) ;
#93 = PERSON_AND_ORGANIZATION ( #102, #127 ) ;
#94 = FACE_OUTER_BOUND ( 'NONE', #38, .T. ) ;
#95 = DIRECTION ( 'NONE',  ( 0.000000000000000000, 0.000000000000000000, 1.000000000000000000 ) ) ;
#96 = AXIS2_PLACEMENT_3D ( 'NONE', #40, #61, #87 ) ;
#97 = CARTESIAN_POINT ( 'NONE',  ( -1.614212418857619014, 7.776507174585692163E-16, -6.349999999999999645 ) ) ;
#98 = DIRECTION ( 'NONE',  ( -1.000000000000000000, 0.000000000000000000, -0.000000000000000000 ) ) ;
#99 = DATE_AND_TIME ( #329, #260 ) ;
#100 = UNCERTAINTY_MEASURE_WITH_UNIT (LENGTH_MEASURE( 1.000000000000000082E-05 ), #317, 'distance_accuracy_value', 'NONE');
#101 = LINE ( 'NONE', #323, #189 ) ;
#102 = PERSON ( 'UNSPECIFIED', 'UNSPECIFIED', 'UNSPECIFIED', ('UNSPECIFIED'), ('UNSPECIFIED'), ('UNSPECIFIED') ) ;
#103 = DIRECTION ( 'NONE',  ( 0.000000000000000000, 0.000000000000000000, 1.000000000000000000 ) ) ;
#104 = AXIS2_PLACEMENT_3D ( 'NONE', #246, #276, #165 ) ;
#105 = DIRECTION ( 'NONE',  ( 1.000000000000000000, 0.000000000000000000, 0.000000000000000000 ) ) ;
#106 = LINE ( 'NONE', #1, #58 ) ;
#107 = DIRECTION ( 'NONE',  ( 0.000000000000000000, 0.000000000000000000, 1.000000000000000000 ) ) ;
#108 = VERTEX_POINT ( 'NONE', #51 ) ;
#109 = ADVANCED_FACE ( 'NONE', ( #22 ), #238, .F. ) ;
#110 = EDGE_LOOP ( 'NONE', ( #213, #208, #75, #160 ) ) ;
#111 = CYLINDRICAL_SURFACE ( 'NONE', #80, 6.349999999999999645 ) ;
#112 = APPROVAL ( #256, 'UNSPECIFIED' ) ;
#113 = CARTESIAN_POINT ( 'NONE',  ( -2.999999999999999556, 0.000000000000000000, 0.000000000000000000 ) ) ;
#114 = AXIS2_PLACEMENT_3D ( 'NONE', #115, #321, #8 ) ;
#115 = CARTESIAN_POINT ( 'NONE',  ( -1.614212418857619014, 0.000000000000000000, 0.000000000000000000 ) ) ;
#116 = DATE_TIME_ROLE ( 'classification_date' ) ;
#117 = LINE ( 'NONE', #31, #285 ) ;
#118 = DIRECTION ( 'NONE',  ( -1.000000000000000000, -0.000000000000000000, -0.000000000000000000 ) ) ;
#119 = ADVANCED_FACE ( 'NONE', ( #132 ), #335, .T. ) ;
#120 = VECTOR ( 'NONE', #48, 1000.000000000000000 ) ;
#121 = COORDINATED_UNIVERSAL_TIME_OFFSET ( 8, 0, .AHEAD. ) ;
#122 = PERSON_AND_ORGANIZATION ( #102, #127 ) ;
#123 = CARTESIAN_POINT ( 'NONE',  ( 3.000000000000000000, 1.555301434917138433E-15, -12.69999999999999929 ) ) ;
#124 = SECURITY_CLASSIFICATION_LEVEL ( 'unclassified' ) ;
#125 = EDGE_CURVE ( 'NONE', #30, #281, #141, .T. ) ;
#126 = DIRECTION ( 'NONE',  ( -0.000000000000000000, 0.000000000000000000, 1.000000000000000000 ) ) ;
#127 = ORGANIZATION ( 'UNSPECIFIED', 'UNSPECIFIED', '' ) ;
#128 = FACE_OUTER_BOUND ( 'NONE', #52, .T. ) ;
#129 = PERSON_AND_ORGANIZATION_ROLE ( 'creator' ) ;
#130 = VERTEX_POINT ( 'NONE', #156 ) ;
#131 = ADVANCED_FACE ( 'NONE', ( #210 ), #26, .F. ) ;
#132 = FACE_OUTER_BOUND ( 'NONE', #17, .T. ) ;
#133 = DIRECTION ( 'NONE',  ( 0.000000000000000000, 0.000000000000000000, 1.000000000000000000 ) ) ;
#134 = ORIENTED_EDGE ( 'NONE', *, *, #231, .F. ) ;
#135 = EDGE_LOOP ( 'NONE', ( #241, #72 ) ) ;
#136 = AXIS2_PLACEMENT_3D ( 'NONE', #312, #314, #133 ) ;
#137 = EDGE_CURVE ( 'NONE', #281, #21, #106, .T. ) ;
#138 = PRODUCT_DEFINITION_SHAPE ( 'NONE', 'NONE',  #47 ) ;
#139 = EDGE_LOOP ( 'NONE', ( #2, #79 ) ) ;
#140 = DIRECTION ( 'NONE',  ( -1.000000000000000000, -0.000000000000000000, -0.000000000000000000 ) ) ;
#141 = CIRCLE ( 'NONE', #53, 6.349999999999999645 ) ;
#142 = DIRECTION ( 'NONE',  ( 0.000000000000000000, 0.000000000000000000, 1.000000000000000000 ) ) ;
#143 = CALENDAR_DATE ( 2020, 24, 12 ) ;
#144 = EDGE_CURVE ( 'NONE', #21, #155, #33, .T. ) ;
#145 = FACE_OUTER_BOUND ( 'NONE', #216, .T. ) ;
#146 = DIRECTION ( 'NONE',  ( 1.000000000000000000, 0.000000000000000000, 0.000000000000000000 ) ) ;
#147 = CIRCLE ( 'NONE', #104, 6.349999999999999645 ) ;
#148 = PERSON_AND_ORGANIZATION ( #102, #127 ) ;
#149 = CARTESIAN_POINT ( 'NONE',  ( -2.999999999999999556, 0.000000000000000000, 0.000000000000000000 ) ) ;
#150 = PERSON_AND_ORGANIZATION ( #102, #127 ) ;
#151 = FACE_BOUND ( 'NONE', #81, .T. ) ;
#152 = DATE_TIME_ROLE ( 'creation_date' ) ;
#153 = ORIENTED_EDGE ( 'NONE', *, *, #231, .T. ) ;
#154 = EDGE_CURVE ( 'NONE', #281, #30, #147, .T. ) ;
#155 = VERTEX_POINT ( 'NONE', #163 ) ;
#156 = CARTESIAN_POINT ( 'NONE',  ( -1.500000000000000444, 0.000000000000000000, 6.349999999999999645 ) ) ;
#157 = CIRCLE ( 'NONE', #7, 12.69999999999999929 ) ;
#158 = DIRECTION ( 'NONE',  ( 1.000000000000000000, 0.000000000000000000, 0.000000000000000000 ) ) ;
#159 = VERTEX_POINT ( 'NONE', #6 ) ;
#160 = ORIENTED_EDGE ( 'NONE', *, *, #331, .F. ) ;
#161 = PRODUCT_DEFINITION_FORMATION_WITH_SPECIFIED_SOURCE ( 'ANY', '', #267, .NOT_KNOWN. ) ;
#162 = EDGE_LOOP ( 'NONE', ( #184, #190 ) ) ;
#163 = CARTESIAN_POINT ( 'NONE',  ( 1.500000000000000888, 7.776507174585692163E-16, -6.349999999999999645 ) ) ;
#164 = DIRECTION ( 'NONE',  ( -1.000000000000000000, -0.000000000000000000, -0.000000000000000000 ) ) ;
#165 = DIRECTION ( 'NONE',  ( 0.000000000000000000, 0.000000000000000000, 1.000000000000000000 ) ) ;
#166 = CIRCLE ( 'NONE', #43, 6.349999999999999645 ) ;
#167 = CARTESIAN_POINT ( 'NONE',  ( -1.614212418857619014, 7.776507174585692163E-16, -6.349999999999999645 ) ) ;
#168 = APPROVAL_PERSON_ORGANIZATION ( #150, #24, #226 ) ;
#169 = EDGE_CURVE ( 'NONE', #258, #290, #223, .T. ) ;
#170 = DIRECTION ( 'NONE',  ( 1.000000000000000000, 0.000000000000000000, 0.000000000000000000 ) ) ;
#171 = ORIENTED_EDGE ( 'NONE', *, *, #259, .F. ) ;
#172 = COORDINATED_UNIVERSAL_TIME_OFFSET ( 8, 0, .AHEAD. ) ;
#173 = DIRECTION ( 'NONE',  ( -1.000000000000000000, -0.000000000000000000, -0.000000000000000000 ) ) ;
#174 = AXIS2_PLACEMENT_3D ( 'NONE', #49, #233, #103 ) ;
#175 = PRODUCT_RELATED_PRODUCT_CATEGORY ( 'detail', '', ( #267 ) ) ;
#176 = LINE ( 'NONE', #97, #120 ) ;
#177 = VERTEX_POINT ( 'NONE', #91 ) ;
#178 = CC_DESIGN_APPROVAL ( #24, ( #161 ) ) ;
#179 = DIRECTION ( 'NONE',  ( 0.000000000000000000, 0.000000000000000000, 1.000000000000000000 ) ) ;
#180 = ORIENTED_EDGE ( 'NONE', *, *, #32, .F. ) ;
#181 = APPROVAL ( #220, 'UNSPECIFIED' ) ;
#182 = DIRECTION ( 'NONE',  ( 0.000000000000000000, 0.000000000000000000, 1.000000000000000000 ) ) ;
#183 = APPROVAL_PERSON_ORGANIZATION ( #148, #112, #228 ) ;
#184 = ORIENTED_EDGE ( 'NONE', *, *, #4, .T. ) ;
#185 = ORIENTED_EDGE ( 'NONE', *, *, #144, .F. ) ;
#186 = LOCAL_TIME ( 9, 34, 55.00000000000000000, #318 ) ;
#187 = ORIENTED_EDGE ( 'NONE', *, *, #125, .T. ) ;
#188 = ADVANCED_BREP_SHAPE_REPRESENTATION ( 'QB-CTZHWP-12.7-633-M', ( #41, #76 ), #327 ) ;
#189 = VECTOR ( 'NONE', #173, 1000.000000000000000 ) ;
#190 = ORIENTED_EDGE ( 'NONE', *, *, #86, .T. ) ;
#191 = AXIS2_PLACEMENT_3D ( 'NONE', #64, #146, #195 ) ;
#192 = CARTESIAN_POINT ( 'NONE',  ( -1.614212418857619014, 1.555301434917138433E-15, -12.69999999999999929 ) ) ;
#193 = CARTESIAN_POINT ( 'NONE',  ( 3.000000000000000000, 0.000000000000000000, 12.69999999999999929 ) ) ;
#194 = SHAPE_DEFINITION_REPRESENTATION ( #138, #188 ) ;
#195 = DIRECTION ( 'NONE',  ( 0.000000000000000000, 0.000000000000000000, -1.000000000000000000 ) ) ;
#196 = ADVANCED_FACE ( 'NONE', ( #297 ), #275, .F. ) ;
#197 = MECHANICAL_CONTEXT ( 'NONE', #291, 'mechanical' ) ;
#198 = DIRECTION ( 'NONE',  ( -0.000000000000000000, 0.000000000000000000, 1.000000000000000000 ) ) ;
#199 = ORIENTED_EDGE ( 'NONE', *, *, #202, .T. ) ;
#200 = FACE_BOUND ( 'NONE', #139, .T. ) ;
#201 = CALENDAR_DATE ( 2020, 24, 12 ) ;
#202 = EDGE_CURVE ( 'NONE', #245, #56, #11, .T. ) ;
#203 = FACE_OUTER_BOUND ( 'NONE', #162, .T. ) ;
#204 = CIRCLE ( 'NONE', #191, 6.349999999999999645 ) ;
#205 = CYLINDRICAL_SURFACE ( 'NONE', #74, 12.69999999999999929 ) ;
#206 = EDGE_CURVE ( 'NONE', #155, #21, #166, .T. ) ;
#207 = CARTESIAN_POINT ( 'NONE',  ( -3.000000000000000000, 6.349999999999999645, 0.000000000000000000 ) ) ;
#208 = ORIENTED_EDGE ( 'NONE', *, *, #71, .T. ) ;
#209 = DESIGN_CONTEXT ( 'detailed design', #306, 'design' ) ;
#210 = FACE_OUTER_BOUND ( 'NONE', #234, .T. ) ;
#211 = ORIENTED_EDGE ( 'NONE', *, *, #206, .T. ) ;
#212 = DIRECTION ( 'NONE',  ( -1.000000000000000000, -0.000000000000000000, -0.000000000000000000 ) ) ;
#213 = ORIENTED_EDGE ( 'NONE', *, *, #235, .T. ) ;
#214 = EDGE_CURVE ( 'NONE', #56, #177, #84, .T. ) ;
#215 = APPROVAL_PERSON_ORGANIZATION ( #90, #181, #322 ) ;
#216 = EDGE_LOOP ( 'NONE', ( #134, #271, #243, #266 ) ) ;
#217 = CARTESIAN_POINT ( 'NONE',  ( -1.614212418857619014, 0.000000000000000000, 0.000000000000000000 ) ) ;
#218 = CARTESIAN_POINT ( 'NONE',  ( 3.000000000000000000, 0.000000000000000000, 0.000000000000000000 ) ) ;
#219 = DIRECTION ( 'NONE',  ( 0.000000000000000000, 0.000000000000000000, 1.000000000000000000 ) ) ;
#220 = APPROVAL_STATUS ( 'not_yet_approved' ) ;
#221 = CARTESIAN_POINT ( 'NONE',  ( -2.999999999999999556, 7.776507174585692163E-16, -6.349999999999999645 ) ) ;
#222 = DIRECTION ( 'NONE',  ( -1.000000000000000000, -0.000000000000000000, -0.000000000000000000 ) ) ;
#223 = CIRCLE ( 'NONE', #313, 6.349999999999999645 ) ;
#224 = PERSON_AND_ORGANIZATION_ROLE ( 'creator' ) ;
#225 = EDGE_LOOP ( 'NONE', ( #27, #270, #44, #263 ) ) ;
#226 = APPROVAL_ROLE ( '' ) ;
#227 = ORIENTED_EDGE ( 'NONE', *, *, #265, .T. ) ;
#228 = APPROVAL_ROLE ( '' ) ;
#229 = CIRCLE ( 'NONE', #280, 12.69999999999999929 ) ;
#230 = CARTESIAN_POINT ( 'NONE',  ( 3.000000000000000000, 12.69999999999999929, 0.000000000000000000 ) ) ;
#231 = EDGE_CURVE ( 'NONE', #30, #155, #278, .T. ) ;
#232 = PERSON_AND_ORGANIZATION ( #102, #127 ) ;
#233 = DIRECTION ( 'NONE',  ( -1.000000000000000000, -0.000000000000000000, -0.000000000000000000 ) ) ;
#234 = EDGE_LOOP ( 'NONE', ( #310, #171 ) ) ;
#235 = EDGE_CURVE ( 'NONE', #130, #108, #85, .T. ) ;
#236 = AXIS2_PLACEMENT_3D ( 'NONE', #294, #10, #60 ) ;
#237 = DIRECTION ( 'NONE',  ( -1.000000000000000000, -0.000000000000000000, -0.000000000000000000 ) ) ;
#238 = CYLINDRICAL_SURFACE ( 'NONE', #136, 6.349999999999999645 ) ;
#239 = LOCAL_TIME ( 9, 34, 55.00000000000000000, #121 ) ;
#240 = DIRECTION ( 'NONE',  ( 0.000000000000000000, 0.000000000000000000, -1.000000000000000000 ) ) ;
#241 = ORIENTED_EDGE ( 'NONE', *, *, #202, .F. ) ;
#242 = CLOSED_SHELL ( 'NONE', ( #39, #196, #303, #9, #247, #109, #82, #119, #65, #131 ) ) ;
#243 = ORIENTED_EDGE ( 'NONE', *, *, #137, .T. ) ;
#244 = CC_DESIGN_DATE_AND_TIME_ASSIGNMENT ( #300, #116, ( #89 ) ) ;
#245 = VERTEX_POINT ( 'NONE', #193 ) ;
#246 = CARTESIAN_POINT ( 'NONE',  ( 3.000000000000000888, 0.000000000000000000, 0.000000000000000000 ) ) ;
#247 = ADVANCED_FACE ( 'NONE', ( #145 ), #249, .F. ) ;
#248 = CARTESIAN_POINT ( 'NONE',  ( 3.000000000000000000, 0.000000000000000000, 0.000000000000000000 ) ) ;
#249 = CYLINDRICAL_SURFACE ( 'NONE', #236, 6.349999999999999645 ) ;
#250 = VECTOR ( 'NONE', #164, 1000.000000000000000 ) ;
#251 = APPROVAL_DATE_TIME ( #295, #181 ) ;
#252 = CALENDAR_DATE ( 2020, 24, 12 ) ;
#253 = DIRECTION ( 'NONE',  ( -1.000000000000000000, -0.000000000000000000, -0.000000000000000000 ) ) ;
#254 = APPLICATION_PROTOCOL_DEFINITION ( 'international standard', 'config_control_design', 1994, #291 ) ;
#255 = CC_DESIGN_PERSON_AND_ORGANIZATION_ASSIGNMENT ( #93, #279, ( #161 ) ) ;
#256 = APPROVAL_STATUS ( 'not_yet_approved' ) ;
#257 = CARTESIAN_POINT ( 'NONE',  ( 3.000000000000000888, 7.776507174585692163E-16, -6.349999999999999645 ) ) ;
#258 = VERTEX_POINT ( 'NONE', #221 ) ;
#259 = EDGE_CURVE ( 'NONE', #108, #130, #204, .T. ) ;
#260 = LOCAL_TIME ( 9, 34, 55.00000000000000000, #15 ) ;
#261 = CC_DESIGN_APPROVAL ( #112, ( #47 ) ) ;
#262 = CARTESIAN_POINT ( 'NONE',  ( -1.500000000000000444, 6.349999999999999645, 0.000000000000000000 ) ) ;
#263 = ORIENTED_EDGE ( 'NONE', *, *, #62, .T. ) ;
#264 = CARTESIAN_POINT ( 'NONE',  ( -1.614212418857619014, 0.000000000000000000, 0.000000000000000000 ) ) ;
#265 = EDGE_CURVE ( 'NONE', #56, #245, #229, .T. ) ;
#266 = ORIENTED_EDGE ( 'NONE', *, *, #144, .T. ) ;
#267 = PRODUCT ( 'QB-CTZHWP-12.7-633-M', 'QB-CTZHWP-12.7-633-M', '', ( #197 ) ) ;
#268 = AXIS2_PLACEMENT_3D ( 'NONE', #149, #284, #16 ) ;
#269 = AXIS2_PLACEMENT_3D ( 'NONE', #230, #98, #126 ) ;
#270 = ORIENTED_EDGE ( 'NONE', *, *, #259, .T. ) ;
#271 = ORIENTED_EDGE ( 'NONE', *, *, #154, .F. ) ;
#272 = DIRECTION ( 'NONE',  ( 0.000000000000000000, 0.000000000000000000, 1.000000000000000000 ) ) ;
#273 = CC_DESIGN_PERSON_AND_ORGANIZATION_ASSIGNMENT ( #298, #36, ( #89 ) ) ;
#274 = CARTESIAN_POINT ( 'NONE',  ( -2.999999999999999556, 0.000000000000000000, 6.349999999999999645 ) ) ;
#275 = CYLINDRICAL_SURFACE ( 'NONE', #114, 6.349999999999999645 ) ;
#276 = DIRECTION ( 'NONE',  ( -1.000000000000000000, -0.000000000000000000, -0.000000000000000000 ) ) ;
#277 = CC_DESIGN_APPROVAL ( #181, ( #89 ) ) ;
#278 = LINE ( 'NONE', #167, #250 ) ;
#279 = PERSON_AND_ORGANIZATION_ROLE ( 'design_supplier' ) ;
#280 = AXIS2_PLACEMENT_3D ( 'NONE', #248, #118, #88 ) ;
#281 = VERTEX_POINT ( 'NONE', #299 ) ;
#282 = ORIENTED_EDGE ( 'NONE', *, *, #214, .F. ) ;
#283 = APPROVAL_STATUS ( 'not_yet_approved' ) ;
#284 = DIRECTION ( 'NONE',  ( -1.000000000000000000, -0.000000000000000000, -0.000000000000000000 ) ) ;
#285 = VECTOR ( 'NONE', #140, 1000.000000000000000 ) ;
#286 = ORIENTED_EDGE ( 'NONE', *, *, #137, .F. ) ;
#287 = CARTESIAN_POINT ( 'NONE',  ( 3.000000000000000888, 0.000000000000000000, 0.000000000000000000 ) ) ;
#288 = AXIS2_PLACEMENT_3D ( 'NONE', #218, #63, #316 ) ;
#289 = CARTESIAN_POINT ( 'NONE',  ( 1.500000000000000888, 0.000000000000000000, 0.000000000000000000 ) ) ;
#290 = VERTEX_POINT ( 'NONE', #274 ) ;
#291 = APPLICATION_CONTEXT ( 'configuration controlled 3d designs of mechanical parts and assemblies' ) ;
#292 = AXIS2_PLACEMENT_3D ( 'NONE', #289, #212, #142 ) ;
#293 = CC_DESIGN_DATE_AND_TIME_ASSIGNMENT ( #66, #152, ( #47 ) ) ;
#294 = CARTESIAN_POINT ( 'NONE',  ( -1.614212418857619014, 0.000000000000000000, 0.000000000000000000 ) ) ;
#295 = DATE_AND_TIME ( #92, #186 ) ;
#296 = FACE_OUTER_BOUND ( 'NONE', #328, .T. ) ;
#297 = FACE_OUTER_BOUND ( 'NONE', #110, .T. ) ;
#298 = PERSON_AND_ORGANIZATION ( #102, #127 ) ;
#299 = CARTESIAN_POINT ( 'NONE',  ( 3.000000000000000888, 0.000000000000000000, 6.349999999999999645 ) ) ;
#300 = DATE_AND_TIME ( #143, #239 ) ;
#301 = PERSON_AND_ORGANIZATION ( #102, #127 ) ;
#302 = ORIENTED_EDGE ( 'NONE', *, *, #206, .F. ) ;
#303 = ADVANCED_FACE ( 'NONE', ( #296 ), #111, .F. ) ;
#304 = DIRECTION ( 'NONE',  ( -1.000000000000000000, 0.000000000000000000, -0.000000000000000000 ) ) ;
#305 = COORDINATED_UNIVERSAL_TIME_OFFSET ( 8, 0, .AHEAD. ) ;
#306 = APPLICATION_CONTEXT ( 'configuration controlled 3d designs of mechanical parts and assemblies' ) ;
#307 = APPROVAL_DATE_TIME ( #45, #112 ) ;
#308 = PLANE ( 'NONE',  #23 ) ;
#309 = LOCAL_TIME ( 9, 34, 55.00000000000000000, #305 ) ;
#310 = ORIENTED_EDGE ( 'NONE', *, *, #235, .F. ) ;
#311 = CARTESIAN_POINT ( 'NONE',  ( -3.000000000000000000, 0.000000000000000000, 0.000000000000000000 ) ) ;
#312 = CARTESIAN_POINT ( 'NONE',  ( -1.614212418857619014, 0.000000000000000000, 0.000000000000000000 ) ) ;
#313 = AXIS2_PLACEMENT_3D ( 'NONE', #113, #222, #272 ) ;
#314 = DIRECTION ( 'NONE',  ( -1.000000000000000000, -0.000000000000000000, -0.000000000000000000 ) ) ;
#315 = DIRECTION ( 'NONE',  ( -1.000000000000000000, -0.000000000000000000, -0.000000000000000000 ) ) ;
#316 = DIRECTION ( 'NONE',  ( 0.000000000000000000, 0.000000000000000000, 1.000000000000000000 ) ) ;
#317 =( LENGTH_UNIT ( ) NAMED_UNIT ( * ) SI_UNIT ( .MILLI., .METRE. ) );
#318 = COORDINATED_UNIVERSAL_TIME_OFFSET ( 8, 0, .AHEAD. ) ;
#319 = DIRECTION ( 'NONE',  ( 0.000000000000000000, 0.000000000000000000, 1.000000000000000000 ) ) ;
#320 = AXIS2_PLACEMENT_3D ( 'NONE', #264, #54, #182 ) ;
#321 = DIRECTION ( 'NONE',  ( -1.000000000000000000, -0.000000000000000000, -0.000000000000000000 ) ) ;
#322 = APPROVAL_ROLE ( '' ) ;
#323 = CARTESIAN_POINT ( 'NONE',  ( -1.614212418857619014, 0.000000000000000000, 12.69999999999999929 ) ) ;
#324 =( NAMED_UNIT ( * ) SI_UNIT ( $, .STERADIAN. ) SOLID_ANGLE_UNIT ( ) );
#325 = ORIENTED_EDGE ( 'NONE', *, *, #125, .F. ) ;
#326 = CARTESIAN_POINT ( 'NONE',  ( 0.000000000000000000, 0.000000000000000000, 0.000000000000000000 ) ) ;
#327 =( GEOMETRIC_REPRESENTATION_CONTEXT ( 3 ) GLOBAL_UNCERTAINTY_ASSIGNED_CONTEXT ( ( #100 ) ) GLOBAL_UNIT_ASSIGNED_CONTEXT ( ( #317, #73, #324 ) ) REPRESENTATION_CONTEXT ( 'NONE', 'WORKASPACE' ) );
#328 = EDGE_LOOP ( 'NONE', ( #325, #153, #211, #286 ) ) ;
#329 = CALENDAR_DATE ( 2020, 24, 12 ) ;
#330 = FACE_OUTER_BOUND ( 'NONE', #135, .T. ) ;
#331 = EDGE_CURVE ( 'NONE', #130, #290, #117, .T. ) ;
#332 = CARTESIAN_POINT ( 'NONE',  ( 1.500000000000000444, 6.349999999999999645, 0.000000000000000000 ) ) ;
#333 = VECTOR ( 'NONE', #35, 1000.000000000000000 ) ;
#334 = DIRECTION ( 'NONE',  ( 0.000000000000000000, 0.000000000000000000, -1.000000000000000000 ) ) ;
#335 = CYLINDRICAL_SURFACE ( 'NONE', #320, 12.69999999999999929 ) ;
ENDSEC;
END-ISO-10303-21;
